Terminaator - Kes uskus

From Eesti lood kitarrile
Revision as of 14:25, 14 June 2013 by Maintenance script (talk) (Importing text file)
(diff) ← Older revision | Latest revision (diff) | Newer revision → (diff)
Jump to: navigation, search
INTRO:  Em  Bm  Em  Bm  Em  Bm  C  D


Em                      Bm
KES USKUS VÕÕRASSE, KES TULI LÄBI ÖÖ.
Em                    Bm
KES USKUS PÕRGUSSE JA KAELA PANI VÖÖ.
Em                    Bm
KES USKUS ARMASTUSSE, MIDA OSTA SAAB.
C                       D
MA JÄIN IMESTADES SELLE ÜLE MÕTLEMA.


Em  Bm  Em  Bm


KES USKUS JUMALASSE, SAI PETTA POOL.
KES ÕPPIDA EI JÕUDNUD, SEDA ÕPETAS ELUKOOL.
KES USKUS VABADUSSE, SEE VANGI JÄI,
IIALGI EI SAA TA KÄIA ENAM PÜSTIPÄI.


	G     Bm      C            D
REF:    TULE, TULE JA VII MIND ÄRA SIIT,
	G     Bm         C           D
	LIIGA PALJU OLEN PIKKI PÄEVI NÄINUD.
	G     Bm      C            D
	TULE, TULE JA VII MIND ÄRA SIIT,
	G     Bm          C         D
	LIIGA PIKA TEE MA OLEN MAHA KÄINUD.


Em  Bm  Em  Bm  Em  Bm  C  D


KES SÕPRUST USALDAS, SAI SELGA NOA.
KES TEELE MINNA TAHTIS, SAI SELLEKS LOA.
KES VAJAS INIMESI, JÄI ÜKSINDA,
MA JÄIN IMESTADES SELLE ÜLE MÕTLEMA.


REF:    TULE, TULE JA VII MIND ÄRA SIIT,...

C                     Em
HOMMIK SAABUB JA KÕIK ON NII ENDINE...


REF:    TULE, TULE JA VII MIND ÄRA SIIT,...



Marek Tiidrus   giant.man@mail.ee

________________________________________________________________

Soolo

E||-------------------------|--------------------|------------------------|
B||-------------------------|--------------------|------------------------|
G||--9/---16----14--16------|--------------------|------------------------|
D||-------------------------|--14----------------|--12--------9h-12h-9----|
A||-------------------------|--------------------|------------------------|
E||-------------------------|--------------------|------------------------|



------------------|-------------------------|--------------------|
------------------|-------------------------|--------------------|
------------------|--9/---16----14--16------|--------------------|
------------------|-------------------------|--14----------------|
------------------|-------------------------|--------------------|
------------------|-------------------------|--------------------|



---------------------|-------------------|--------------------------|
---------------------|-------------------|--------------------------|
---------------------|--------------9/---|--16----14--16------------|
--12--------9--------|-------------------|--------------------14----|
---------------------|-------------------|--------------------------|
---------------------|-------------------|--------------------------|



--------------------|----------------------|-------------------|
--------------------|----------------------|-------------------|
--------------------|----------------------|--------------9/---|
--------------12----|------9h-12h-9--------|-------------------|
--------------------|----------------------|-------------------|
--------------------|----------------------|-------------------|



--------------------------|--------------------|------------------------||
--------------------------|--------------------|------------------------||
--16----14--16------------|--------------------|------------------------||
--------------------14----|--------------17----|------16h-17h-16--------||
--------------------------|--------------------|------------------------||
--------------------------|--------------------|------------------------||

Tarmo Tammeoks <borninblack@hotmail.com>